ISO-10303-21;
HEADER;
/* Generated by software containing ST-Developer
 * from STEP Tools, Inc. (www.steptools.com) 
 */

FILE_DESCRIPTION(
/* description */ (''),
/* implementation_level */ '2;1');

FILE_NAME(
/* name */ 'E:\\Deck\\_files\\\X2\043A0440043E043D0448044204350439043D044B\X0\\\
BM08-IM\\BM08-IM.stp',
/* time_stamp */ '2024-12-23T15:20:49+07:00',
/* author */ ('L0STik'),
/* organization */ (''),
/* preprocessor_version */ 'ST-DEVELOPER v18.1',
/* originating_system */ 'Autodesk Inventor 2021',
/* authorisation */ '');

FILE_SCHEMA (('AUTOMOTIVE_DESIGN { 1 0 10303 214 3 1 1 }'));
ENDSEC;

DATA;
#10=MECHANICAL_DESIGN_GEOMETRIC_PRESENTATION_REPRESENTATION('',(#13),#652);
#11=SHAPE_REPRESENTATION_RELATIONSHIP('SRR','None',#659,#12);
#12=ADVANCED_BREP_SHAPE_REPRESENTATION('',(#14),#651);
#13=STYLED_ITEM('',(#668),#14);
#14=MANIFOLD_SOLID_BREP('\X2\04220432043504400434043E0435\X0\ \X2\04420435043B043E\X0\1',
#370);
#15=FACE_BOUND('',#51,.T.);
#16=FACE_BOUND('',#52,.T.);
#17=FACE_BOUND('',#53,.T.);
#18=FACE_BOUND('',#70,.T.);
#19=FACE_BOUND('',#71,.T.);
#20=FACE_BOUND('',#72,.T.);
#21=PLANE('',#393);
#22=PLANE('',#394);
#23=PLANE('',#407);
#24=PLANE('',#410);
#25=PLANE('',#425);
#26=PLANE('',#428);
#27=PLANE('',#429);
#28=PLANE('',#430);
#29=FACE_OUTER_BOUND('',#48,.T.);
#30=FACE_OUTER_BOUND('',#49,.T.);
#31=FACE_OUTER_BOUND('',#50,.T.);
#32=FACE_OUTER_BOUND('',#54,.T.);
#33=FACE_OUTER_BOUND('',#55,.T.);
#34=FACE_OUTER_BOUND('',#56,.T.);
#35=FACE_OUTER_BOUND('',#57,.T.);
#36=FACE_OUTER_BOUND('',#58,.T.);
#37=FACE_OUTER_BOUND('',#59,.T.);
#38=FACE_OUTER_BOUND('',#60,.T.);
#39=FACE_OUTER_BOUND('',#61,.T.);
#40=FACE_OUTER_BOUND('',#62,.T.);
#41=FACE_OUTER_BOUND('',#63,.T.);
#42=FACE_OUTER_BOUND('',#64,.T.);
#43=FACE_OUTER_BOUND('',#65,.T.);
#44=FACE_OUTER_BOUND('',#66,.T.);
#45=FACE_OUTER_BOUND('',#67,.T.);
#46=FACE_OUTER_BOUND('',#68,.T.);
#47=FACE_OUTER_BOUND('',#69,.T.);
#48=EDGE_LOOP('',(#238,#239,#240,#241));
#49=EDGE_LOOP('',(#242,#243,#244,#245));
#50=EDGE_LOOP('',(#246,#247,#248,#249,#250,#251,#252,#253));
#51=EDGE_LOOP('',(#254,#255,#256,#257));
#52=EDGE_LOOP('',(#258));
#53=EDGE_LOOP('',(#259,#260,#261,#262));
#54=EDGE_LOOP('',(#263,#264,#265,#266));
#55=EDGE_LOOP('',(#267,#268,#269,#270));
#56=EDGE_LOOP('',(#271,#272,#273,#274));
#57=EDGE_LOOP('',(#275,#276,#277,#278));
#58=EDGE_LOOP('',(#279,#280,#281,#282));
#59=EDGE_LOOP('',(#283,#284,#285,#286));
#60=EDGE_LOOP('',(#287,#288,#289,#290));
#61=EDGE_LOOP('',(#291,#292,#293,#294));
#62=EDGE_LOOP('',(#295,#296,#297,#298));
#63=EDGE_LOOP('',(#299,#300,#301,#302));
#64=EDGE_LOOP('',(#303,#304,#305,#306));
#65=EDGE_LOOP('',(#307,#308,#309,#310));
#66=EDGE_LOOP('',(#311,#312,#313,#314));
#67=EDGE_LOOP('',(#315,#316,#317,#318));
#68=EDGE_LOOP('',(#319,#320,#321,#322));
#69=EDGE_LOOP('',(#323,#324,#325,#326,#327,#328,#329,#330));
#70=EDGE_LOOP('',(#331,#332,#333,#334));
#71=EDGE_LOOP('',(#335));
#72=EDGE_LOOP('',(#336,#337,#338,#339));
#73=LINE('',#550,#102);
#74=LINE('',#553,#103);
#75=LINE('',#556,#104);
#76=LINE('',#558,#105);
#77=LINE('',#559,#106);
#78=LINE('',#562,#107);
#79=LINE('',#566,#108);
#80=LINE('',#570,#109);
#81=LINE('',#586,#110);
#82=LINE('',#589,#111);
#83=LINE('',#593,#112);
#84=LINE('',#596,#113);
#85=LINE('',#597,#114);
#86=LINE('',#602,#115);
#87=LINE('',#603,#116);
#88=LINE('',#605,#117);
#89=LINE('',#609,#118);
#90=LINE('',#614,#119);
#91=LINE('',#615,#120);
#92=LINE('',#619,#121);
#93=LINE('',#623,#122);
#94=LINE('',#629,#123);
#95=LINE('',#634,#124);
#96=LINE('',#635,#125);
#97=LINE('',#638,#126);
#98=LINE('',#639,#127);
#99=LINE('',#643,#128);
#100=LINE('',#645,#129);
#101=LINE('',#647,#130);
#102=VECTOR('',#437,10.);
#103=VECTOR('',#440,10.);
#104=VECTOR('',#443,10.);
#105=VECTOR('',#444,10.);
#106=VECTOR('',#445,10.);
#107=VECTOR('',#448,10.);
#108=VECTOR('',#451,10.);
#109=VECTOR('',#454,10.);
#110=VECTOR('',#469,10.);
#111=VECTOR('',#472,10.);
#112=VECTOR('',#477,10.);
#113=VECTOR('',#480,10.);
#114=VECTOR('',#481,10.);
#115=VECTOR('',#486,10.);
#116=VECTOR('',#487,10.);
#117=VECTOR('',#490,10.);
#118=VECTOR('',#495,10.);
#119=VECTOR('',#500,10.);
#120=VECTOR('',#501,10.);
#121=VECTOR('',#506,10.);
#122=VECTOR('',#511,10.);
#123=VECTOR('',#520,2.1);
#124=VECTOR('',#525,10.);
#125=VECTOR('',#526,10.);
#126=VECTOR('',#529,10.);
#127=VECTOR('',#530,10.);
#128=VECTOR('',#535,10.);
#129=VECTOR('',#538,10.);
#130=VECTOR('',#541,10.);
#131=CIRCLE('',#391,1.);
#132=CIRCLE('',#392,1.);
#133=CIRCLE('',#395,1.);
#134=CIRCLE('',#396,1.);
#135=CIRCLE('',#397,1.);
#136=CIRCLE('',#398,2.1);
#137=CIRCLE('',#399,14.6);
#138=CIRCLE('',#400,2.1);
#139=CIRCLE('',#401,18.8);
#140=CIRCLE('',#402,2.1);
#141=CIRCLE('',#403,4.15);
#142=CIRCLE('',#404,4.15);
#143=CIRCLE('',#406,1.);
#144=CIRCLE('',#409,1.);
#145=CIRCLE('',#412,1.);
#146=CIRCLE('',#414,2.1);
#147=CIRCLE('',#416,14.6);
#148=CIRCLE('',#418,2.1);
#149=CIRCLE('',#420,18.8);
#150=CIRCLE('',#422,2.1);
#151=CIRCLE('',#424,4.15);
#152=CIRCLE('',#427,4.15);
#153=VERTEX_POINT('',#546);
#154=VERTEX_POINT('',#547);
#155=VERTEX_POINT('',#549);
#156=VERTEX_POINT('',#551);
#157=VERTEX_POINT('',#555);
#158=VERTEX_POINT('',#557);
#159=VERTEX_POINT('',#561);
#160=VERTEX_POINT('',#563);
#161=VERTEX_POINT('',#565);
#162=VERTEX_POINT('',#567);
#163=VERTEX_POINT('',#569);
#164=VERTEX_POINT('',#572);
#165=VERTEX_POINT('',#573);
#166=VERTEX_POINT('',#575);
#167=VERTEX_POINT('',#577);
#168=VERTEX_POINT('',#580);
#169=VERTEX_POINT('',#582);
#170=VERTEX_POINT('',#583);
#171=VERTEX_POINT('',#585);
#172=VERTEX_POINT('',#587);
#173=VERTEX_POINT('',#591);
#174=VERTEX_POINT('',#595);
#175=VERTEX_POINT('',#599);
#176=VERTEX_POINT('',#600);
#177=VERTEX_POINT('',#607);
#178=VERTEX_POINT('',#611);
#179=VERTEX_POINT('',#612);
#180=VERTEX_POINT('',#617);
#181=VERTEX_POINT('',#621);
#182=VERTEX_POINT('',#627);
#183=VERTEX_POINT('',#631);
#184=VERTEX_POINT('',#632);
#185=VERTEX_POINT('',#637);
#186=VERTEX_POINT('',#641);
#187=EDGE_CURVE('',#153,#154,#131,.T.);
#188=EDGE_CURVE('',#154,#155,#73,.T.);
#189=EDGE_CURVE('',#155,#156,#132,.T.);
#190=EDGE_CURVE('',#156,#153,#74,.T.);
#191=EDGE_CURVE('',#157,#156,#75,.T.);
#192=EDGE_CURVE('',#158,#157,#76,.T.);
#193=EDGE_CURVE('',#158,#153,#77,.T.);
#194=EDGE_CURVE('',#155,#159,#78,.T.);
#195=EDGE_CURVE('',#160,#159,#133,.T.);
#196=EDGE_CURVE('',#160,#161,#79,.T.);
#197=EDGE_CURVE('',#162,#161,#134,.T.);
#198=EDGE_CURVE('',#162,#163,#80,.T.);
#199=EDGE_CURVE('',#157,#163,#135,.T.);
#200=EDGE_CURVE('',#164,#165,#136,.T.);
#201=EDGE_CURVE('',#165,#166,#137,.T.);
#202=EDGE_CURVE('',#166,#167,#138,.T.);
#203=EDGE_CURVE('',#167,#164,#139,.T.);
#204=EDGE_CURVE('',#168,#168,#140,.T.);
#205=EDGE_CURVE('',#169,#170,#141,.T.);
#206=EDGE_CURVE('',#170,#171,#81,.T.);
#207=EDGE_CURVE('',#171,#172,#142,.T.);
#208=EDGE_CURVE('',#172,#169,#82,.T.);
#209=EDGE_CURVE('',#173,#158,#143,.T.);
#210=EDGE_CURVE('',#163,#173,#83,.T.);
#211=EDGE_CURVE('',#174,#162,#84,.T.);
#212=EDGE_CURVE('',#174,#173,#85,.T.);
#213=EDGE_CURVE('',#175,#176,#144,.T.);
#214=EDGE_CURVE('',#176,#160,#86,.T.);
#215=EDGE_CURVE('',#159,#175,#87,.T.);
#216=EDGE_CURVE('',#154,#175,#88,.T.);
#217=EDGE_CURVE('',#177,#174,#145,.T.);
#218=EDGE_CURVE('',#161,#177,#89,.T.);
#219=EDGE_CURVE('',#178,#179,#146,.T.);
#220=EDGE_CURVE('',#178,#165,#90,.T.);
#221=EDGE_CURVE('',#179,#164,#91,.T.);
#222=EDGE_CURVE('',#180,#178,#147,.T.);
#223=EDGE_CURVE('',#180,#166,#92,.T.);
#224=EDGE_CURVE('',#181,#180,#148,.T.);
#225=EDGE_CURVE('',#181,#167,#93,.T.);
#226=EDGE_CURVE('',#179,#181,#149,.T.);
#227=EDGE_CURVE('',#182,#182,#150,.T.);
#228=EDGE_CURVE('',#182,#168,#94,.T.);
#229=EDGE_CURVE('',#183,#184,#151,.T.);
#230=EDGE_CURVE('',#183,#170,#95,.T.);
#231=EDGE_CURVE('',#184,#169,#96,.T.);
#232=EDGE_CURVE('',#185,#183,#97,.T.);
#233=EDGE_CURVE('',#185,#171,#98,.T.);
#234=EDGE_CURVE('',#186,#185,#152,.T.);
#235=EDGE_CURVE('',#186,#172,#99,.T.);
#236=EDGE_CURVE('',#184,#186,#100,.T.);
#237=EDGE_CURVE('',#176,#177,#101,.T.);
#238=ORIENTED_EDGE('',*,*,#187,.T.);
#239=ORIENTED_EDGE('',*,*,#188,.T.);
#240=ORIENTED_EDGE('',*,*,#189,.T.);
#241=ORIENTED_EDGE('',*,*,#190,.T.);
#242=ORIENTED_EDGE('',*,*,#190,.F.);
#243=ORIENTED_EDGE('',*,*,#191,.F.);
#244=ORIENTED_EDGE('',*,*,#192,.F.);
#245=ORIENTED_EDGE('',*,*,#193,.T.);
#246=ORIENTED_EDGE('',*,*,#189,.F.);
#247=ORIENTED_EDGE('',*,*,#194,.T.);
#248=ORIENTED_EDGE('',*,*,#195,.F.);
#249=ORIENTED_EDGE('',*,*,#196,.T.);
#250=ORIENTED_EDGE('',*,*,#197,.F.);
#251=ORIENTED_EDGE('',*,*,#198,.T.);
#252=ORIENTED_EDGE('',*,*,#199,.F.);
#253=ORIENTED_EDGE('',*,*,#191,.T.);
#254=ORIENTED_EDGE('',*,*,#200,.T.);
#255=ORIENTED_EDGE('',*,*,#201,.T.);
#256=ORIENTED_EDGE('',*,*,#202,.T.);
#257=ORIENTED_EDGE('',*,*,#203,.T.);
#258=ORIENTED_EDGE('',*,*,#204,.T.);
#259=ORIENTED_EDGE('',*,*,#205,.T.);
#260=ORIENTED_EDGE('',*,*,#206,.T.);
#261=ORIENTED_EDGE('',*,*,#207,.T.);
#262=ORIENTED_EDGE('',*,*,#208,.T.);
#263=ORIENTED_EDGE('',*,*,#209,.T.);
#264=ORIENTED_EDGE('',*,*,#192,.T.);
#265=ORIENTED_EDGE('',*,*,#199,.T.);
#266=ORIENTED_EDGE('',*,*,#210,.T.);
#267=ORIENTED_EDGE('',*,*,#210,.F.);
#268=ORIENTED_EDGE('',*,*,#198,.F.);
#269=ORIENTED_EDGE('',*,*,#211,.F.);
#270=ORIENTED_EDGE('',*,*,#212,.T.);
#271=ORIENTED_EDGE('',*,*,#213,.T.);
#272=ORIENTED_EDGE('',*,*,#214,.T.);
#273=ORIENTED_EDGE('',*,*,#195,.T.);
#274=ORIENTED_EDGE('',*,*,#215,.T.);
#275=ORIENTED_EDGE('',*,*,#188,.F.);
#276=ORIENTED_EDGE('',*,*,#216,.T.);
#277=ORIENTED_EDGE('',*,*,#215,.F.);
#278=ORIENTED_EDGE('',*,*,#194,.F.);
#279=ORIENTED_EDGE('',*,*,#217,.T.);
#280=ORIENTED_EDGE('',*,*,#211,.T.);
#281=ORIENTED_EDGE('',*,*,#197,.T.);
#282=ORIENTED_EDGE('',*,*,#218,.T.);
#283=ORIENTED_EDGE('',*,*,#219,.F.);
#284=ORIENTED_EDGE('',*,*,#220,.T.);
#285=ORIENTED_EDGE('',*,*,#200,.F.);
#286=ORIENTED_EDGE('',*,*,#221,.F.);
#287=ORIENTED_EDGE('',*,*,#222,.F.);
#288=ORIENTED_EDGE('',*,*,#223,.T.);
#289=ORIENTED_EDGE('',*,*,#201,.F.);
#290=ORIENTED_EDGE('',*,*,#220,.F.);
#291=ORIENTED_EDGE('',*,*,#224,.F.);
#292=ORIENTED_EDGE('',*,*,#225,.T.);
#293=ORIENTED_EDGE('',*,*,#202,.F.);
#294=ORIENTED_EDGE('',*,*,#223,.F.);
#295=ORIENTED_EDGE('',*,*,#226,.F.);
#296=ORIENTED_EDGE('',*,*,#221,.T.);
#297=ORIENTED_EDGE('',*,*,#203,.F.);
#298=ORIENTED_EDGE('',*,*,#225,.F.);
#299=ORIENTED_EDGE('',*,*,#227,.F.);
#300=ORIENTED_EDGE('',*,*,#228,.T.);
#301=ORIENTED_EDGE('',*,*,#204,.F.);
#302=ORIENTED_EDGE('',*,*,#228,.F.);
#303=ORIENTED_EDGE('',*,*,#229,.F.);
#304=ORIENTED_EDGE('',*,*,#230,.T.);
#305=ORIENTED_EDGE('',*,*,#205,.F.);
#306=ORIENTED_EDGE('',*,*,#231,.F.);
#307=ORIENTED_EDGE('',*,*,#232,.F.);
#308=ORIENTED_EDGE('',*,*,#233,.T.);
#309=ORIENTED_EDGE('',*,*,#206,.F.);
#310=ORIENTED_EDGE('',*,*,#230,.F.);
#311=ORIENTED_EDGE('',*,*,#234,.F.);
#312=ORIENTED_EDGE('',*,*,#235,.T.);
#313=ORIENTED_EDGE('',*,*,#207,.F.);
#314=ORIENTED_EDGE('',*,*,#233,.F.);
#315=ORIENTED_EDGE('',*,*,#236,.F.);
#316=ORIENTED_EDGE('',*,*,#231,.T.);
#317=ORIENTED_EDGE('',*,*,#208,.F.);
#318=ORIENTED_EDGE('',*,*,#235,.F.);
#319=ORIENTED_EDGE('',*,*,#214,.F.);
#320=ORIENTED_EDGE('',*,*,#237,.T.);
#321=ORIENTED_EDGE('',*,*,#218,.F.);
#322=ORIENTED_EDGE('',*,*,#196,.F.);
#323=ORIENTED_EDGE('',*,*,#187,.F.);
#324=ORIENTED_EDGE('',*,*,#193,.F.);
#325=ORIENTED_EDGE('',*,*,#209,.F.);
#326=ORIENTED_EDGE('',*,*,#212,.F.);
#327=ORIENTED_EDGE('',*,*,#217,.F.);
#328=ORIENTED_EDGE('',*,*,#237,.F.);
#329=ORIENTED_EDGE('',*,*,#213,.F.);
#330=ORIENTED_EDGE('',*,*,#216,.F.);
#331=ORIENTED_EDGE('',*,*,#219,.T.);
#332=ORIENTED_EDGE('',*,*,#226,.T.);
#333=ORIENTED_EDGE('',*,*,#224,.T.);
#334=ORIENTED_EDGE('',*,*,#222,.T.);
#335=ORIENTED_EDGE('',*,*,#227,.T.);
#336=ORIENTED_EDGE('',*,*,#229,.T.);
#337=ORIENTED_EDGE('',*,*,#236,.T.);
#338=ORIENTED_EDGE('',*,*,#234,.T.);
#339=ORIENTED_EDGE('',*,*,#232,.T.);
#340=CYLINDRICAL_SURFACE('',#390,1.);
#341=CYLINDRICAL_SURFACE('',#405,1.);
#342=CYLINDRICAL_SURFACE('',#408,1.);
#343=CYLINDRICAL_SURFACE('',#411,1.);
#344=CYLINDRICAL_SURFACE('',#413,2.1);
#345=CYLINDRICAL_SURFACE('',#415,14.6);
#346=CYLINDRICAL_SURFACE('',#417,2.1);
#347=CYLINDRICAL_SURFACE('',#419,18.8);
#348=CYLINDRICAL_SURFACE('',#421,2.1);
#349=CYLINDRICAL_SURFACE('',#423,4.15);
#350=CYLINDRICAL_SURFACE('',#426,4.15);
#351=ADVANCED_FACE('',(#29),#340,.T.);
#352=ADVANCED_FACE('',(#30),#21,.T.);
#353=ADVANCED_FACE('',(#31,#15,#16,#17),#22,.F.);
#354=ADVANCED_FACE('',(#32),#341,.T.);
#355=ADVANCED_FACE('',(#33),#23,.T.);
#356=ADVANCED_FACE('',(#34),#342,.T.);
#357=ADVANCED_FACE('',(#35),#24,.T.);
#358=ADVANCED_FACE('',(#36),#343,.T.);
#359=ADVANCED_FACE('',(#37),#344,.F.);
#360=ADVANCED_FACE('',(#38),#345,.T.);
#361=ADVANCED_FACE('',(#39),#346,.F.);
#362=ADVANCED_FACE('',(#40),#347,.F.);
#363=ADVANCED_FACE('',(#41),#348,.F.);
#364=ADVANCED_FACE('',(#42),#349,.F.);
#365=ADVANCED_FACE('',(#43),#25,.F.);
#366=ADVANCED_FACE('',(#44),#350,.F.);
#367=ADVANCED_FACE('',(#45),#26,.F.);
#368=ADVANCED_FACE('',(#46),#27,.T.);
#369=ADVANCED_FACE('',(#47,#18,#19,#20),#28,.T.);
#370=CLOSED_SHELL('',(#351,#352,#353,#354,#355,#356,#357,#358,#359,#360,
#361,#362,#363,#364,#365,#366,#367,#368,#369));
#371=DERIVED_UNIT_ELEMENT(#373,1.);
#372=DERIVED_UNIT_ELEMENT(#654,-3.);
#373=(
MASS_UNIT()
NAMED_UNIT(*)
SI_UNIT($,.GRAM.)
);
#374=DERIVED_UNIT((#371,#372));
#375=MEASURE_REPRESENTATION_ITEM('density measure',
POSITIVE_RATIO_MEASURE(7.85),#374);
#376=PROPERTY_DEFINITION_REPRESENTATION(#381,#378);
#377=PROPERTY_DEFINITION_REPRESENTATION(#382,#379);
#378=REPRESENTATION('material name',(#380),#651);
#379=REPRESENTATION('density',(#375),#651);
#380=DESCRIPTIVE_REPRESENTATION_ITEM(
'\X2\042104420430043B044C\X0\, \X2\04330430043B044C04320430043D0438043704380440043E04320430043D043D0430044F\X0\',
'\X2\042104420430043B044C\X0\, \X2\04330430043B044C04320430043D0438043704380440043E04320430043D043D0430044F\X0\');
#381=PROPERTY_DEFINITION('material property','material name',#661);
#382=PROPERTY_DEFINITION('material property','density of part',#661);
#383=DATE_TIME_ROLE('creation_date');
#384=APPLIED_DATE_AND_TIME_ASSIGNMENT(#385,#383,(#661));
#385=DATE_AND_TIME(#386,#387);
#386=CALENDAR_DATE(2024,23,12);
#387=LOCAL_TIME(0,0,0.,#388);
#388=COORDINATED_UNIVERSAL_TIME_OFFSET(0,0,.BEHIND.);
#389=AXIS2_PLACEMENT_3D('placement',#544,#431,#432);
#390=AXIS2_PLACEMENT_3D('',#545,#433,#434);
#391=AXIS2_PLACEMENT_3D('',#548,#435,#436);
#392=AXIS2_PLACEMENT_3D('',#552,#438,#439);
#393=AXIS2_PLACEMENT_3D('',#554,#441,#442);
#394=AXIS2_PLACEMENT_3D('',#560,#446,#447);
#395=AXIS2_PLACEMENT_3D('',#564,#449,#450);
#396=AXIS2_PLACEMENT_3D('',#568,#452,#453);
#397=AXIS2_PLACEMENT_3D('',#571,#455,#456);
#398=AXIS2_PLACEMENT_3D('',#574,#457,#458);
#399=AXIS2_PLACEMENT_3D('',#576,#459,#460);
#400=AXIS2_PLACEMENT_3D('',#578,#461,#462);
#401=AXIS2_PLACEMENT_3D('',#579,#463,#464);
#402=AXIS2_PLACEMENT_3D('',#581,#465,#466);
#403=AXIS2_PLACEMENT_3D('',#584,#467,#468);
#404=AXIS2_PLACEMENT_3D('',#588,#470,#471);
#405=AXIS2_PLACEMENT_3D('',#590,#473,#474);
#406=AXIS2_PLACEMENT_3D('',#592,#475,#476);
#407=AXIS2_PLACEMENT_3D('',#594,#478,#479);
#408=AXIS2_PLACEMENT_3D('',#598,#482,#483);
#409=AXIS2_PLACEMENT_3D('',#601,#484,#485);
#410=AXIS2_PLACEMENT_3D('',#604,#488,#489);
#411=AXIS2_PLACEMENT_3D('',#606,#491,#492);
#412=AXIS2_PLACEMENT_3D('',#608,#493,#494);
#413=AXIS2_PLACEMENT_3D('',#610,#496,#497);
#414=AXIS2_PLACEMENT_3D('',#613,#498,#499);
#415=AXIS2_PLACEMENT_3D('',#616,#502,#503);
#416=AXIS2_PLACEMENT_3D('',#618,#504,#505);
#417=AXIS2_PLACEMENT_3D('',#620,#507,#508);
#418=AXIS2_PLACEMENT_3D('',#622,#509,#510);
#419=AXIS2_PLACEMENT_3D('',#624,#512,#513);
#420=AXIS2_PLACEMENT_3D('',#625,#514,#515);
#421=AXIS2_PLACEMENT_3D('',#626,#516,#517);
#422=AXIS2_PLACEMENT_3D('',#628,#518,#519);
#423=AXIS2_PLACEMENT_3D('',#630,#521,#522);
#424=AXIS2_PLACEMENT_3D('',#633,#523,#524);
#425=AXIS2_PLACEMENT_3D('',#636,#527,#528);
#426=AXIS2_PLACEMENT_3D('',#640,#531,#532);
#427=AXIS2_PLACEMENT_3D('',#642,#533,#534);
#428=AXIS2_PLACEMENT_3D('',#644,#536,#537);
#429=AXIS2_PLACEMENT_3D('',#646,#539,#540);
#430=AXIS2_PLACEMENT_3D('',#648,#542,#543);
#431=DIRECTION('axis',(0.,0.,1.));
#432=DIRECTION('refdir',(1.,0.,0.));
#433=DIRECTION('center_axis',(0.,0.,1.));
#434=DIRECTION('ref_axis',(-0.707106781186548,0.707106781186547,0.));
#435=DIRECTION('center_axis',(0.,0.,-1.));
#436=DIRECTION('ref_axis',(-0.707106781186548,0.707106781186547,0.));
#437=DIRECTION('',(0.,0.,-1.));
#438=DIRECTION('center_axis',(0.,0.,1.));
#439=DIRECTION('ref_axis',(-0.707106781186548,0.707106781186547,0.));
#440=DIRECTION('',(0.,0.,1.));
#441=DIRECTION('center_axis',(-1.,-1.89781713611138E-16,0.));
#442=DIRECTION('ref_axis',(0.,0.,1.));
#443=DIRECTION('',(-1.89781713611138E-16,1.,0.));
#444=DIRECTION('',(0.,0.,-1.));
#445=DIRECTION('',(-1.89781713611138E-16,1.,0.));
#446=DIRECTION('center_axis',(0.,0.,1.));
#447=DIRECTION('ref_axis',(1.,0.,0.));
#448=DIRECTION('',(1.,0.,0.));
#449=DIRECTION('center_axis',(0.,0.,1.));
#450=DIRECTION('ref_axis',(0.707106781186549,0.707106781186546,0.));
#451=DIRECTION('',(3.79563427222276E-17,-1.,0.));
#452=DIRECTION('center_axis',(0.,0.,1.));
#453=DIRECTION('ref_axis',(0.707106781186548,-0.707106781186547,0.));
#454=DIRECTION('',(-1.,0.,0.));
#455=DIRECTION('center_axis',(0.,0.,1.));
#456=DIRECTION('ref_axis',(-0.707106781186549,-0.707106781186546,0.));
#457=DIRECTION('center_axis',(0.,0.,1.));
#458=DIRECTION('ref_axis',(0.119760479041916,-0.992802814087294,0.));
#459=DIRECTION('center_axis',(0.,0.,-1.));
#460=DIRECTION('ref_axis',(0.119760479041916,0.992802814087294,0.));
#461=DIRECTION('center_axis',(0.,0.,1.));
#462=DIRECTION('ref_axis',(0.119760479041916,0.992802814087294,0.));
#463=DIRECTION('center_axis',(0.,0.,1.));
#464=DIRECTION('ref_axis',(-0.119760479041916,-0.992802814087294,0.));
#465=DIRECTION('center_axis',(0.,0.,1.));
#466=DIRECTION('ref_axis',(-1.,0.,0.));
#467=DIRECTION('center_axis',(0.,0.,1.));
#468=DIRECTION('ref_axis',(-1.,0.,0.));
#469=DIRECTION('',(-1.26161707343768E-16,1.,0.));
#470=DIRECTION('center_axis',(0.,0.,1.));
#471=DIRECTION('ref_axis',(1.,0.,0.));
#472=DIRECTION('',(0.,-1.,0.));
#473=DIRECTION('center_axis',(0.,0.,1.));
#474=DIRECTION('ref_axis',(-0.707106781186549,-0.707106781186546,0.));
#475=DIRECTION('center_axis',(0.,0.,-1.));
#476=DIRECTION('ref_axis',(-0.707106781186549,-0.707106781186546,0.));
#477=DIRECTION('',(0.,0.,1.));
#478=DIRECTION('center_axis',(0.,-1.,0.));
#479=DIRECTION('ref_axis',(0.,0.,-1.));
#480=DIRECTION('',(0.,0.,-1.));
#481=DIRECTION('',(-1.,0.,0.));
#482=DIRECTION('center_axis',(0.,0.,1.));
#483=DIRECTION('ref_axis',(0.707106781186549,0.707106781186546,0.));
#484=DIRECTION('center_axis',(0.,0.,-1.));
#485=DIRECTION('ref_axis',(0.707106781186549,0.707106781186546,0.));
#486=DIRECTION('',(0.,0.,-1.));
#487=DIRECTION('',(0.,0.,1.));
#488=DIRECTION('center_axis',(0.,1.,0.));
#489=DIRECTION('ref_axis',(0.,0.,1.));
#490=DIRECTION('',(1.,0.,0.));
#491=DIRECTION('center_axis',(0.,0.,1.));
#492=DIRECTION('ref_axis',(0.707106781186548,-0.707106781186547,0.));
#493=DIRECTION('center_axis',(0.,0.,-1.));
#494=DIRECTION('ref_axis',(0.707106781186548,-0.707106781186547,0.));
#495=DIRECTION('',(0.,0.,1.));
#496=DIRECTION('center_axis',(0.,0.,-1.));
#497=DIRECTION('ref_axis',(0.119760479041916,-0.992802814087294,0.));
#498=DIRECTION('center_axis',(0.,0.,-1.));
#499=DIRECTION('ref_axis',(0.119760479041916,-0.992802814087294,0.));
#500=DIRECTION('',(0.,0.,-1.));
#501=DIRECTION('',(0.,0.,-1.));
#502=DIRECTION('center_axis',(0.,0.,-1.));
#503=DIRECTION('ref_axis',(0.119760479041916,0.992802814087294,0.));
#504=DIRECTION('center_axis',(0.,0.,1.));
#505=DIRECTION('ref_axis',(0.119760479041916,0.992802814087294,0.));
#506=DIRECTION('',(0.,0.,-1.));
#507=DIRECTION('center_axis',(0.,0.,-1.));
#508=DIRECTION('ref_axis',(0.119760479041916,0.992802814087294,0.));
#509=DIRECTION('center_axis',(0.,0.,-1.));
#510=DIRECTION('ref_axis',(0.119760479041916,0.992802814087294,0.));
#511=DIRECTION('',(0.,0.,-1.));
#512=DIRECTION('center_axis',(0.,0.,-1.));
#513=DIRECTION('ref_axis',(-0.119760479041916,-0.992802814087294,0.));
#514=DIRECTION('center_axis',(0.,0.,-1.));
#515=DIRECTION('ref_axis',(-0.119760479041916,-0.992802814087294,0.));
#516=DIRECTION('center_axis',(0.,0.,-1.));
#517=DIRECTION('ref_axis',(-1.,0.,0.));
#518=DIRECTION('center_axis',(0.,0.,-1.));
#519=DIRECTION('ref_axis',(-1.,0.,0.));
#520=DIRECTION('',(0.,0.,-1.));
#521=DIRECTION('center_axis',(0.,0.,-1.));
#522=DIRECTION('ref_axis',(-1.,0.,0.));
#523=DIRECTION('center_axis',(0.,0.,-1.));
#524=DIRECTION('ref_axis',(-1.,0.,0.));
#525=DIRECTION('',(0.,0.,-1.));
#526=DIRECTION('',(0.,0.,-1.));
#527=DIRECTION('center_axis',(1.,1.26161707343768E-16,0.));
#528=DIRECTION('ref_axis',(1.26161707343768E-16,-1.,0.));
#529=DIRECTION('',(1.26161707343768E-16,-1.,0.));
#530=DIRECTION('',(0.,0.,-1.));
#531=DIRECTION('center_axis',(0.,0.,-1.));
#532=DIRECTION('ref_axis',(1.,0.,0.));
#533=DIRECTION('center_axis',(0.,0.,-1.));
#534=DIRECTION('ref_axis',(1.,0.,0.));
#535=DIRECTION('',(0.,0.,-1.));
#536=DIRECTION('center_axis',(-1.,0.,0.));
#537=DIRECTION('ref_axis',(0.,1.,0.));
#538=DIRECTION('',(0.,1.,0.));
#539=DIRECTION('center_axis',(1.,3.79563427222276E-17,0.));
#540=DIRECTION('ref_axis',(0.,0.,-1.));
#541=DIRECTION('',(3.79563427222276E-17,-1.,0.));
#542=DIRECTION('center_axis',(0.,0.,1.));
#543=DIRECTION('ref_axis',(1.,0.,0.));
#544=CARTESIAN_POINT('',(0.,0.,0.));
#545=CARTESIAN_POINT('Origin',(-7.00000000000001,28.25,0.));
#546=CARTESIAN_POINT('',(-8.00000000000001,28.25,1.5));
#547=CARTESIAN_POINT('',(-7.00000000000001,29.25,1.5));
#548=CARTESIAN_POINT('Origin',(-7.00000000000001,28.25,1.5));
#549=CARTESIAN_POINT('',(-7.00000000000001,29.25,0.));
#550=CARTESIAN_POINT('',(-7.00000000000001,29.25,0.));
#551=CARTESIAN_POINT('',(-8.00000000000001,28.25,0.));
#552=CARTESIAN_POINT('Origin',(-7.00000000000001,28.25,0.));
#553=CARTESIAN_POINT('',(-8.00000000000001,28.25,0.));
#554=CARTESIAN_POINT('Origin',(-8.,-29.25,0.));
#555=CARTESIAN_POINT('',(-8.,-28.25,0.));
#556=CARTESIAN_POINT('',(-8.,-29.25,0.));
#557=CARTESIAN_POINT('',(-8.,-28.25,1.5));
#558=CARTESIAN_POINT('',(-8.,-28.25,0.));
#559=CARTESIAN_POINT('',(-8.,-29.25,1.5));
#560=CARTESIAN_POINT('Origin',(-1.11022302462516E-15,2.22044604925031E-15,
0.));
#561=CARTESIAN_POINT('',(7.,29.25,0.));
#562=CARTESIAN_POINT('',(-8.00000000000001,29.25,0.));
#563=CARTESIAN_POINT('',(8.,28.25,0.));
#564=CARTESIAN_POINT('Origin',(7.,28.25,0.));
#565=CARTESIAN_POINT('',(8.,-28.25,0.));
#566=CARTESIAN_POINT('',(8.,29.25,0.));
#567=CARTESIAN_POINT('',(7.,-29.25,0.));
#568=CARTESIAN_POINT('Origin',(7.,-28.25,0.));
#569=CARTESIAN_POINT('',(-7.,-29.25,0.));
#570=CARTESIAN_POINT('',(8.,-29.25,0.));
#571=CARTESIAN_POINT('Origin',(-7.,-28.25,0.));
#572=CARTESIAN_POINT('',(2.25149700598802,10.5853070951589,0.));
#573=CARTESIAN_POINT('',(1.74850299401198,14.7550789143255,0.));
#574=CARTESIAN_POINT('Origin',(2.,12.6701930047422,0.));
#575=CARTESIAN_POINT('',(-1.74850299401198,14.7550789143255,0.));
#576=CARTESIAN_POINT('Origin',(0.,29.25,0.));
#577=CARTESIAN_POINT('',(-2.25149700598802,10.5853070951589,0.));
#578=CARTESIAN_POINT('Origin',(-2.,12.6701930047422,0.));
#579=CARTESIAN_POINT('Origin',(0.,29.25,0.));
#580=CARTESIAN_POINT('',(2.1,23.75,0.));
#581=CARTESIAN_POINT('Origin',(0.,23.75,0.));
#582=CARTESIAN_POINT('',(-4.15,-20.1,0.));
#583=CARTESIAN_POINT('',(4.15,-20.1,0.));
#584=CARTESIAN_POINT('Origin',(4.72273865736049E-16,-20.1,0.));
#585=CARTESIAN_POINT('',(4.15,-11.3,0.));
#586=CARTESIAN_POINT('',(4.15,-5.65,0.));
#587=CARTESIAN_POINT('',(-4.15,-11.3,0.));
#588=CARTESIAN_POINT('Origin',(-6.05415317513622E-16,-11.3,0.));
#589=CARTESIAN_POINT('',(-4.15,-10.05,0.));
#590=CARTESIAN_POINT('Origin',(-7.,-28.25,0.));
#591=CARTESIAN_POINT('',(-7.,-29.25,1.5));
#592=CARTESIAN_POINT('Origin',(-7.,-28.25,1.5));
#593=CARTESIAN_POINT('',(-7.,-29.25,0.));
#594=CARTESIAN_POINT('Origin',(8.,-29.25,0.));
#595=CARTESIAN_POINT('',(7.,-29.25,1.5));
#596=CARTESIAN_POINT('',(7.,-29.25,0.));
#597=CARTESIAN_POINT('',(8.,-29.25,1.5));
#598=CARTESIAN_POINT('Origin',(7.,28.25,0.));
#599=CARTESIAN_POINT('',(7.,29.25,1.5));
#600=CARTESIAN_POINT('',(8.,28.25,1.5));
#601=CARTESIAN_POINT('Origin',(7.,28.25,1.5));
#602=CARTESIAN_POINT('',(8.,28.25,0.));
#603=CARTESIAN_POINT('',(7.,29.25,0.));
#604=CARTESIAN_POINT('Origin',(-8.00000000000001,29.25,0.));
#605=CARTESIAN_POINT('',(-8.00000000000001,29.25,1.5));
#606=CARTESIAN_POINT('Origin',(7.,-28.25,0.));
#607=CARTESIAN_POINT('',(8.,-28.25,1.5));
#608=CARTESIAN_POINT('Origin',(7.,-28.25,1.5));
#609=CARTESIAN_POINT('',(8.,-28.25,0.));
#610=CARTESIAN_POINT('Origin',(2.,12.6701930047422,1.5));
#611=CARTESIAN_POINT('',(1.74850299401198,14.7550789143255,1.5));
#612=CARTESIAN_POINT('',(2.25149700598802,10.5853070951589,1.5));
#613=CARTESIAN_POINT('Origin',(2.,12.6701930047422,1.5));
#614=CARTESIAN_POINT('',(1.74850299401198,14.7550789143255,1.5));
#615=CARTESIAN_POINT('',(2.25149700598802,10.5853070951589,1.5));
#616=CARTESIAN_POINT('Origin',(0.,29.25,1.5));
#617=CARTESIAN_POINT('',(-1.74850299401198,14.7550789143255,1.5));
#618=CARTESIAN_POINT('Origin',(0.,29.25,1.5));
#619=CARTESIAN_POINT('',(-1.74850299401198,14.7550789143255,1.5));
#620=CARTESIAN_POINT('Origin',(-2.,12.6701930047422,1.5));
#621=CARTESIAN_POINT('',(-2.25149700598802,10.5853070951589,1.5));
#622=CARTESIAN_POINT('Origin',(-2.,12.6701930047422,1.5));
#623=CARTESIAN_POINT('',(-2.25149700598802,10.5853070951589,1.5));
#624=CARTESIAN_POINT('Origin',(0.,29.25,1.5));
#625=CARTESIAN_POINT('Origin',(0.,29.25,1.5));
#626=CARTESIAN_POINT('Origin',(0.,23.75,1.5));
#627=CARTESIAN_POINT('',(2.1,23.75,1.5));
#628=CARTESIAN_POINT('Origin',(0.,23.75,1.5));
#629=CARTESIAN_POINT('',(2.1,23.75,1.5));
#630=CARTESIAN_POINT('Origin',(4.72273865736049E-16,-20.1,1.5));
#631=CARTESIAN_POINT('',(4.15,-20.1,1.5));
#632=CARTESIAN_POINT('',(-4.15,-20.1,1.5));
#633=CARTESIAN_POINT('Origin',(4.72273865736049E-16,-20.1,1.5));
#634=CARTESIAN_POINT('',(4.15,-20.1,1.5));
#635=CARTESIAN_POINT('',(-4.15,-20.1,1.5));
#636=CARTESIAN_POINT('Origin',(4.15,-11.3,1.5));
#637=CARTESIAN_POINT('',(4.15,-11.3,1.5));
#638=CARTESIAN_POINT('',(4.15,-5.65,1.5));
#639=CARTESIAN_POINT('',(4.15,-11.3,1.5));
#640=CARTESIAN_POINT('Origin',(-6.05415317513622E-16,-11.3,1.5));
#641=CARTESIAN_POINT('',(-4.15,-11.3,1.5));
#642=CARTESIAN_POINT('Origin',(-6.05415317513622E-16,-11.3,1.5));
#643=CARTESIAN_POINT('',(-4.15,-11.3,1.5));
#644=CARTESIAN_POINT('Origin',(-4.15,-20.1,1.5));
#645=CARTESIAN_POINT('',(-4.15,-10.05,1.5));
#646=CARTESIAN_POINT('Origin',(8.,29.25,0.));
#647=CARTESIAN_POINT('',(8.,29.25,1.5));
#648=CARTESIAN_POINT('Origin',(-1.11022302462516E-15,2.22044604925031E-15,
1.5));
#649=UNCERTAINTY_MEASURE_WITH_UNIT(LENGTH_MEASURE(0.01),#653,
'DISTANCE_ACCURACY_VALUE',
'Maximum model space distance between geometric entities at asserted c
onnectivities');
#650=UNCERTAINTY_MEASURE_WITH_UNIT(LENGTH_MEASURE(0.01),#653,
'DISTANCE_ACCURACY_VALUE',
'Maximum model space distance between geometric entities at asserted c
onnectivities');
#651=(
GEOMETRIC_REPRESENTATION_CONTEXT(3)
GLOBAL_UNCERTAINTY_ASSIGNED_CONTEXT((#649))
GLOBAL_UNIT_ASSIGNED_CONTEXT((#653,#655,#656))
REPRESENTATION_CONTEXT('','3D')
);
#652=(
GEOMETRIC_REPRESENTATION_CONTEXT(3)
GLOBAL_UNCERTAINTY_ASSIGNED_CONTEXT((#650))
GLOBAL_UNIT_ASSIGNED_CONTEXT((#653,#655,#656))
REPRESENTATION_CONTEXT('','3D')
);
#653=(
LENGTH_UNIT()
NAMED_UNIT(*)
SI_UNIT(.MILLI.,.METRE.)
);
#654=(
LENGTH_UNIT()
NAMED_UNIT(*)
SI_UNIT(.CENTI.,.METRE.)
);
#655=(
NAMED_UNIT(*)
PLANE_ANGLE_UNIT()
SI_UNIT($,.RADIAN.)
);
#656=(
NAMED_UNIT(*)
SI_UNIT($,.STERADIAN.)
SOLID_ANGLE_UNIT()
);
#657=SHAPE_DEFINITION_REPRESENTATION(#658,#659);
#658=PRODUCT_DEFINITION_SHAPE('',$,#661);
#659=SHAPE_REPRESENTATION('',(#389),#651);
#660=PRODUCT_DEFINITION_CONTEXT('part definition',#665,'design');
#661=PRODUCT_DEFINITION('BM08-IM','BM08-IM',#662,#660);
#662=PRODUCT_DEFINITION_FORMATION('',$,#667);
#663=PRODUCT_RELATED_PRODUCT_CATEGORY('BM08-IM','BM08-IM',(#667));
#664=APPLICATION_PROTOCOL_DEFINITION('international standard',
'automotive_design',2009,#665);
#665=APPLICATION_CONTEXT(
'Core Data for Automotive Mechanical Design Process');
#666=PRODUCT_CONTEXT('part definition',#665,'mechanical');
#667=PRODUCT('BM08-IM','BM08-IM',$,(#666));
#668=PRESENTATION_STYLE_ASSIGNMENT((#669));
#669=SURFACE_STYLE_USAGE(.BOTH.,#672);
#670=SURFACE_STYLE_RENDERING_WITH_PROPERTIES($,#676,(#671));
#671=SURFACE_STYLE_TRANSPARENT(0.);
#672=SURFACE_SIDE_STYLE('',(#673,#670));
#673=SURFACE_STYLE_FILL_AREA(#674);
#674=FILL_AREA_STYLE('',(#675));
#675=FILL_AREA_STYLE_COLOUR('',#676);
#676=COLOUR_RGB('',0.745098039215686,0.737254901960784,0.729411764705882);
ENDSEC;
END-ISO-10303-21;
