ISO-10303-21;
HEADER;
/* Generated by software containing ST-Developer
 * from STEP Tools, Inc. (www.steptools.com) 
 */

FILE_DESCRIPTION(
/* description */ (''),
/* implementation_level */ '2;1');

FILE_NAME(
/* name */ 'E:\\Deck\\_files\\SB-22\\SB-22.SCA\\SB-22.SCA.stp',
/* time_stamp */ '2024-12-25T13:06:10+07:00',
/* author */ ('L0STik'),
/* organization */ (''),
/* preprocessor_version */ 'ST-DEVELOPER v18.1',
/* originating_system */ 'Autodesk Inventor 2021',
/* authorisation */ '');

FILE_SCHEMA (('AUTOMOTIVE_DESIGN { 1 0 10303 214 3 1 1 }'));
ENDSEC;

DATA;
#10=MECHANICAL_DESIGN_GEOMETRIC_PRESENTATION_REPRESENTATION('',(#13),#520);
#11=SHAPE_REPRESENTATION_RELATIONSHIP('SRR','None',#527,#12);
#12=ADVANCED_BREP_SHAPE_REPRESENTATION('',(#14),#519);
#13=STYLED_ITEM('',(#536),#14);
#14=MANIFOLD_SOLID_BREP('\X2\04220432043504400434043E0435\X0\ \X2\04420435043B043E\X0\1',
#264);
#15=FACE_BOUND('',#61,.T.);
#16=FACE_BOUND('',#65,.T.);
#17=PLANE('',#291);
#18=PLANE('',#299);
#19=PLANE('',#305);
#20=PLANE('',#315);
#21=LINE('',#449,#26);
#22=LINE('',#463,#27);
#23=LINE('',#478,#28);
#24=LINE('',#497,#29);
#25=LINE('',#509,#30);
#26=VECTOR('',#347,11.25);
#27=VECTOR('',#366,11.25);
#28=VECTOR('',#385,14.75);
#29=VECTOR('',#408,14.75);
#30=VECTOR('',#423,11.25);
#31=CYLINDRICAL_SURFACE('',#289,11.25);
#32=CYLINDRICAL_SURFACE('',#297,12.25);
#33=CYLINDRICAL_SURFACE('',#307,13.75);
#34=CYLINDRICAL_SURFACE('',#317,14.75);
#35=CYLINDRICAL_SURFACE('',#324,11.25);
#36=FACE_OUTER_BOUND('',#53,.T.);
#37=FACE_OUTER_BOUND('',#54,.T.);
#38=FACE_OUTER_BOUND('',#55,.T.);
#39=FACE_OUTER_BOUND('',#56,.T.);
#40=FACE_OUTER_BOUND('',#57,.T.);
#41=FACE_OUTER_BOUND('',#58,.T.);
#42=FACE_OUTER_BOUND('',#59,.T.);
#43=FACE_OUTER_BOUND('',#60,.T.);
#44=FACE_OUTER_BOUND('',#62,.T.);
#45=FACE_OUTER_BOUND('',#63,.T.);
#46=FACE_OUTER_BOUND('',#64,.T.);
#47=FACE_OUTER_BOUND('',#66,.T.);
#48=FACE_OUTER_BOUND('',#67,.T.);
#49=FACE_OUTER_BOUND('',#68,.T.);
#50=FACE_OUTER_BOUND('',#69,.T.);
#51=FACE_OUTER_BOUND('',#70,.T.);
#52=FACE_OUTER_BOUND('',#71,.T.);
#53=EDGE_LOOP('',(#165,#166,#167,#168,#169));
#54=EDGE_LOOP('',(#170,#171,#172,#173,#174));
#55=EDGE_LOOP('',(#175));
#56=EDGE_LOOP('',(#176,#177,#178,#179,#180));
#57=EDGE_LOOP('',(#181,#182,#183,#184,#185));
#58=EDGE_LOOP('',(#186));
#59=EDGE_LOOP('',(#187,#188,#189,#190,#191));
#60=EDGE_LOOP('',(#192));
#61=EDGE_LOOP('',(#193));
#62=EDGE_LOOP('',(#194,#195,#196,#197,#198,#199));
#63=EDGE_LOOP('',(#200,#201,#202,#203,#204));
#64=EDGE_LOOP('',(#205));
#65=EDGE_LOOP('',(#206));
#66=EDGE_LOOP('',(#207,#208,#209,#210,#211,#212));
#67=EDGE_LOOP('',(#213,#214,#215,#216,#217));
#68=EDGE_LOOP('',(#218,#219,#220,#221,#222,#223));
#69=EDGE_LOOP('',(#224,#225,#226,#227,#228));
#70=EDGE_LOOP('',(#229,#230,#231,#232,#233));
#71=EDGE_LOOP('',(#234,#235,#236,#237,#238));
#72=CIRCLE('',#285,11.25);
#73=CIRCLE('',#286,11.25);
#74=CIRCLE('',#287,0.05);
#75=CIRCLE('',#288,11.2);
#76=CIRCLE('',#290,11.25);
#77=CIRCLE('',#293,12.25);
#78=CIRCLE('',#294,0.05);
#79=CIRCLE('',#295,12.2);
#80=CIRCLE('',#296,12.25);
#81=CIRCLE('',#298,12.25);
#82=CIRCLE('',#301,13.75);
#83=CIRCLE('',#302,0.05);
#84=CIRCLE('',#303,13.7);
#85=CIRCLE('',#304,13.75);
#86=CIRCLE('',#306,11.3);
#87=CIRCLE('',#308,13.75);
#88=CIRCLE('',#309,13.75);
#89=CIRCLE('',#311,14.75);
#90=CIRCLE('',#312,0.05);
#91=CIRCLE('',#313,14.7);
#92=CIRCLE('',#314,14.75);
#93=CIRCLE('',#316,11.3);
#94=CIRCLE('',#318,14.75);
#95=CIRCLE('',#319,14.75);
#96=CIRCLE('',#321,0.05);
#97=CIRCLE('',#322,11.25);
#98=CIRCLE('',#323,11.25);
#99=CIRCLE('',#325,11.25);
#100=CIRCLE('',#326,11.25);
#101=CIRCLE('',#328,0.05);
#102=CIRCLE('',#330,0.749999999999998);
#103=CIRCLE('',#332,1.75);
#104=VERTEX_POINT('',#440);
#105=VERTEX_POINT('',#441);
#106=VERTEX_POINT('',#444);
#107=VERTEX_POINT('',#448);
#108=VERTEX_POINT('',#453);
#109=VERTEX_POINT('',#454);
#110=VERTEX_POINT('',#456);
#111=VERTEX_POINT('',#461);
#112=VERTEX_POINT('',#466);
#113=VERTEX_POINT('',#467);
#114=VERTEX_POINT('',#469);
#115=VERTEX_POINT('',#474);
#116=VERTEX_POINT('',#477);
#117=VERTEX_POINT('',#479);
#118=VERTEX_POINT('',#483);
#119=VERTEX_POINT('',#484);
#120=VERTEX_POINT('',#486);
#121=VERTEX_POINT('',#491);
#122=VERTEX_POINT('',#494);
#123=VERTEX_POINT('',#495);
#124=VERTEX_POINT('',#500);
#125=VERTEX_POINT('',#502);
#126=VERTEX_POINT('',#506);
#127=VERTEX_POINT('',#507);
#128=EDGE_CURVE('',#104,#105,#72,.T.);
#129=EDGE_CURVE('',#105,#104,#73,.T.);
#130=EDGE_CURVE('',#104,#106,#74,.T.);
#131=EDGE_CURVE('',#106,#106,#75,.T.);
#132=EDGE_CURVE('',#105,#107,#21,.T.);
#133=EDGE_CURVE('',#107,#107,#76,.T.);
#134=EDGE_CURVE('',#108,#109,#77,.T.);
#135=EDGE_CURVE('',#109,#110,#78,.T.);
#136=EDGE_CURVE('',#110,#110,#79,.T.);
#137=EDGE_CURVE('',#109,#108,#80,.T.);
#138=EDGE_CURVE('',#111,#111,#81,.T.);
#139=EDGE_CURVE('',#111,#108,#22,.T.);
#140=EDGE_CURVE('',#112,#113,#82,.T.);
#141=EDGE_CURVE('',#113,#114,#83,.T.);
#142=EDGE_CURVE('',#114,#114,#84,.T.);
#143=EDGE_CURVE('',#113,#112,#85,.T.);
#144=EDGE_CURVE('',#115,#115,#86,.T.);
#145=EDGE_CURVE('',#112,#116,#23,.T.);
#146=EDGE_CURVE('',#117,#116,#87,.T.);
#147=EDGE_CURVE('',#116,#117,#88,.T.);
#148=EDGE_CURVE('',#118,#119,#89,.T.);
#149=EDGE_CURVE('',#119,#120,#90,.T.);
#150=EDGE_CURVE('',#120,#120,#91,.T.);
#151=EDGE_CURVE('',#119,#118,#92,.T.);
#152=EDGE_CURVE('',#121,#121,#93,.T.);
#153=EDGE_CURVE('',#122,#123,#94,.T.);
#154=EDGE_CURVE('',#123,#118,#24,.T.);
#155=EDGE_CURVE('',#123,#122,#95,.T.);
#156=EDGE_CURVE('',#115,#124,#96,.T.);
#157=EDGE_CURVE('',#124,#125,#97,.T.);
#158=EDGE_CURVE('',#125,#124,#98,.T.);
#159=EDGE_CURVE('',#126,#127,#99,.T.);
#160=EDGE_CURVE('',#126,#125,#25,.T.);
#161=EDGE_CURVE('',#127,#126,#100,.T.);
#162=EDGE_CURVE('',#121,#127,#101,.T.);
#163=EDGE_CURVE('',#111,#117,#102,.T.);
#164=EDGE_CURVE('',#122,#107,#103,.T.);
#165=ORIENTED_EDGE('',*,*,#128,.T.);
#166=ORIENTED_EDGE('',*,*,#129,.T.);
#167=ORIENTED_EDGE('',*,*,#130,.T.);
#168=ORIENTED_EDGE('',*,*,#131,.T.);
#169=ORIENTED_EDGE('',*,*,#130,.F.);
#170=ORIENTED_EDGE('',*,*,#128,.F.);
#171=ORIENTED_EDGE('',*,*,#129,.F.);
#172=ORIENTED_EDGE('',*,*,#132,.T.);
#173=ORIENTED_EDGE('',*,*,#133,.F.);
#174=ORIENTED_EDGE('',*,*,#132,.F.);
#175=ORIENTED_EDGE('',*,*,#131,.F.);
#176=ORIENTED_EDGE('',*,*,#134,.T.);
#177=ORIENTED_EDGE('',*,*,#135,.T.);
#178=ORIENTED_EDGE('',*,*,#136,.T.);
#179=ORIENTED_EDGE('',*,*,#135,.F.);
#180=ORIENTED_EDGE('',*,*,#137,.T.);
#181=ORIENTED_EDGE('',*,*,#138,.T.);
#182=ORIENTED_EDGE('',*,*,#139,.T.);
#183=ORIENTED_EDGE('',*,*,#137,.F.);
#184=ORIENTED_EDGE('',*,*,#134,.F.);
#185=ORIENTED_EDGE('',*,*,#139,.F.);
#186=ORIENTED_EDGE('',*,*,#136,.F.);
#187=ORIENTED_EDGE('',*,*,#140,.T.);
#188=ORIENTED_EDGE('',*,*,#141,.T.);
#189=ORIENTED_EDGE('',*,*,#142,.T.);
#190=ORIENTED_EDGE('',*,*,#141,.F.);
#191=ORIENTED_EDGE('',*,*,#143,.T.);
#192=ORIENTED_EDGE('',*,*,#142,.F.);
#193=ORIENTED_EDGE('',*,*,#144,.F.);
#194=ORIENTED_EDGE('',*,*,#140,.F.);
#195=ORIENTED_EDGE('',*,*,#145,.T.);
#196=ORIENTED_EDGE('',*,*,#146,.F.);
#197=ORIENTED_EDGE('',*,*,#147,.F.);
#198=ORIENTED_EDGE('',*,*,#145,.F.);
#199=ORIENTED_EDGE('',*,*,#143,.F.);
#200=ORIENTED_EDGE('',*,*,#148,.T.);
#201=ORIENTED_EDGE('',*,*,#149,.T.);
#202=ORIENTED_EDGE('',*,*,#150,.T.);
#203=ORIENTED_EDGE('',*,*,#149,.F.);
#204=ORIENTED_EDGE('',*,*,#151,.T.);
#205=ORIENTED_EDGE('',*,*,#150,.F.);
#206=ORIENTED_EDGE('',*,*,#152,.F.);
#207=ORIENTED_EDGE('',*,*,#153,.T.);
#208=ORIENTED_EDGE('',*,*,#154,.T.);
#209=ORIENTED_EDGE('',*,*,#151,.F.);
#210=ORIENTED_EDGE('',*,*,#148,.F.);
#211=ORIENTED_EDGE('',*,*,#154,.F.);
#212=ORIENTED_EDGE('',*,*,#155,.T.);
#213=ORIENTED_EDGE('',*,*,#144,.T.);
#214=ORIENTED_EDGE('',*,*,#156,.T.);
#215=ORIENTED_EDGE('',*,*,#157,.T.);
#216=ORIENTED_EDGE('',*,*,#158,.T.);
#217=ORIENTED_EDGE('',*,*,#156,.F.);
#218=ORIENTED_EDGE('',*,*,#159,.F.);
#219=ORIENTED_EDGE('',*,*,#160,.T.);
#220=ORIENTED_EDGE('',*,*,#157,.F.);
#221=ORIENTED_EDGE('',*,*,#158,.F.);
#222=ORIENTED_EDGE('',*,*,#160,.F.);
#223=ORIENTED_EDGE('',*,*,#161,.F.);
#224=ORIENTED_EDGE('',*,*,#152,.T.);
#225=ORIENTED_EDGE('',*,*,#162,.T.);
#226=ORIENTED_EDGE('',*,*,#161,.T.);
#227=ORIENTED_EDGE('',*,*,#159,.T.);
#228=ORIENTED_EDGE('',*,*,#162,.F.);
#229=ORIENTED_EDGE('',*,*,#138,.F.);
#230=ORIENTED_EDGE('',*,*,#163,.T.);
#231=ORIENTED_EDGE('',*,*,#146,.T.);
#232=ORIENTED_EDGE('',*,*,#147,.T.);
#233=ORIENTED_EDGE('',*,*,#163,.F.);
#234=ORIENTED_EDGE('',*,*,#153,.F.);
#235=ORIENTED_EDGE('',*,*,#164,.T.);
#236=ORIENTED_EDGE('',*,*,#133,.T.);
#237=ORIENTED_EDGE('',*,*,#164,.F.);
#238=ORIENTED_EDGE('',*,*,#155,.F.);
#239=TOROIDAL_SURFACE('',#284,11.2,0.05);
#240=TOROIDAL_SURFACE('',#292,12.2,0.05);
#241=TOROIDAL_SURFACE('',#300,13.7,0.05);
#242=TOROIDAL_SURFACE('',#310,14.7,0.05);
#243=TOROIDAL_SURFACE('',#320,11.3,0.05);
#244=TOROIDAL_SURFACE('',#327,11.3,0.05);
#245=TOROIDAL_SURFACE('',#329,13.,0.749999999999998);
#246=TOROIDAL_SURFACE('',#331,13.,1.75);
#247=ADVANCED_FACE('',(#36),#239,.F.);
#248=ADVANCED_FACE('',(#37),#31,.F.);
#249=ADVANCED_FACE('',(#38),#17,.T.);
#250=ADVANCED_FACE('',(#39),#240,.T.);
#251=ADVANCED_FACE('',(#40),#32,.T.);
#252=ADVANCED_FACE('',(#41),#18,.F.);
#253=ADVANCED_FACE('',(#42),#241,.F.);
#254=ADVANCED_FACE('',(#43,#15),#19,.T.);
#255=ADVANCED_FACE('',(#44),#33,.F.);
#256=ADVANCED_FACE('',(#45),#242,.T.);
#257=ADVANCED_FACE('',(#46,#16),#20,.F.);
#258=ADVANCED_FACE('',(#47),#34,.T.);
#259=ADVANCED_FACE('',(#48),#243,.T.);
#260=ADVANCED_FACE('',(#49),#35,.F.);
#261=ADVANCED_FACE('',(#50),#244,.T.);
#262=ADVANCED_FACE('',(#51),#245,.F.);
#263=ADVANCED_FACE('',(#52),#246,.T.);
#264=CLOSED_SHELL('',(#247,#248,#249,#250,#251,#252,#253,#254,#255,#256,
#257,#258,#259,#260,#261,#262,#263));
#265=DERIVED_UNIT_ELEMENT(#267,1.);
#266=DERIVED_UNIT_ELEMENT(#522,-3.);
#267=(
MASS_UNIT()
NAMED_UNIT(*)
SI_UNIT($,.GRAM.)
);
#268=DERIVED_UNIT((#265,#266));
#269=MEASURE_REPRESENTATION_ITEM('density measure',
POSITIVE_RATIO_MEASURE(1.25),#268);
#270=PROPERTY_DEFINITION_REPRESENTATION(#275,#272);
#271=PROPERTY_DEFINITION_REPRESENTATION(#276,#273);
#272=REPRESENTATION('material name',(#274),#519);
#273=REPRESENTATION('density',(#269),#519);
#274=DESCRIPTIVE_REPRESENTATION_ITEM(
'\X2\041A0430044304470443043A\X0\, \X2\04410438043B0438043A043E043D043E0432044B0439\X0\',
'\X2\041A0430044304470443043A\X0\, \X2\04410438043B0438043A043E043D043E0432044B0439\X0\');
#275=PROPERTY_DEFINITION('material property','material name',#529);
#276=PROPERTY_DEFINITION('material property','density of part',#529);
#277=DATE_TIME_ROLE('creation_date');
#278=APPLIED_DATE_AND_TIME_ASSIGNMENT(#279,#277,(#529));
#279=DATE_AND_TIME(#280,#281);
#280=CALENDAR_DATE(2024,18,12);
#281=LOCAL_TIME(0,0,0.,#282);
#282=COORDINATED_UNIVERSAL_TIME_OFFSET(0,0,.BEHIND.);
#283=AXIS2_PLACEMENT_3D('placement',#438,#333,#334);
#284=AXIS2_PLACEMENT_3D('',#439,#335,#336);
#285=AXIS2_PLACEMENT_3D('',#442,#337,#338);
#286=AXIS2_PLACEMENT_3D('',#443,#339,#340);
#287=AXIS2_PLACEMENT_3D('',#445,#341,#342);
#288=AXIS2_PLACEMENT_3D('',#446,#343,#344);
#289=AXIS2_PLACEMENT_3D('',#447,#345,#346);
#290=AXIS2_PLACEMENT_3D('',#450,#348,#349);
#291=AXIS2_PLACEMENT_3D('',#451,#350,#351);
#292=AXIS2_PLACEMENT_3D('',#452,#352,#353);
#293=AXIS2_PLACEMENT_3D('',#455,#354,#355);
#294=AXIS2_PLACEMENT_3D('',#457,#356,#357);
#295=AXIS2_PLACEMENT_3D('',#458,#358,#359);
#296=AXIS2_PLACEMENT_3D('',#459,#360,#361);
#297=AXIS2_PLACEMENT_3D('',#460,#362,#363);
#298=AXIS2_PLACEMENT_3D('',#462,#364,#365);
#299=AXIS2_PLACEMENT_3D('',#464,#367,#368);
#300=AXIS2_PLACEMENT_3D('',#465,#369,#370);
#301=AXIS2_PLACEMENT_3D('',#468,#371,#372);
#302=AXIS2_PLACEMENT_3D('',#470,#373,#374);
#303=AXIS2_PLACEMENT_3D('',#471,#375,#376);
#304=AXIS2_PLACEMENT_3D('',#472,#377,#378);
#305=AXIS2_PLACEMENT_3D('',#473,#379,#380);
#306=AXIS2_PLACEMENT_3D('',#475,#381,#382);
#307=AXIS2_PLACEMENT_3D('',#476,#383,#384);
#308=AXIS2_PLACEMENT_3D('',#480,#386,#387);
#309=AXIS2_PLACEMENT_3D('',#481,#388,#389);
#310=AXIS2_PLACEMENT_3D('',#482,#390,#391);
#311=AXIS2_PLACEMENT_3D('',#485,#392,#393);
#312=AXIS2_PLACEMENT_3D('',#487,#394,#395);
#313=AXIS2_PLACEMENT_3D('',#488,#396,#397);
#314=AXIS2_PLACEMENT_3D('',#489,#398,#399);
#315=AXIS2_PLACEMENT_3D('',#490,#400,#401);
#316=AXIS2_PLACEMENT_3D('',#492,#402,#403);
#317=AXIS2_PLACEMENT_3D('',#493,#404,#405);
#318=AXIS2_PLACEMENT_3D('',#496,#406,#407);
#319=AXIS2_PLACEMENT_3D('',#498,#409,#410);
#320=AXIS2_PLACEMENT_3D('',#499,#411,#412);
#321=AXIS2_PLACEMENT_3D('',#501,#413,#414);
#322=AXIS2_PLACEMENT_3D('',#503,#415,#416);
#323=AXIS2_PLACEMENT_3D('',#504,#417,#418);
#324=AXIS2_PLACEMENT_3D('',#505,#419,#420);
#325=AXIS2_PLACEMENT_3D('',#508,#421,#422);
#326=AXIS2_PLACEMENT_3D('',#510,#424,#425);
#327=AXIS2_PLACEMENT_3D('',#511,#426,#427);
#328=AXIS2_PLACEMENT_3D('',#512,#428,#429);
#329=AXIS2_PLACEMENT_3D('',#513,#430,#431);
#330=AXIS2_PLACEMENT_3D('',#514,#432,#433);
#331=AXIS2_PLACEMENT_3D('',#515,#434,#435);
#332=AXIS2_PLACEMENT_3D('',#516,#436,#437);
#333=DIRECTION('axis',(0.,0.,1.));
#334=DIRECTION('refdir',(1.,0.,0.));
#335=DIRECTION('center_axis',(0.,1.,0.));
#336=DIRECTION('ref_axis',(0.,0.,1.));
#337=DIRECTION('center_axis',(0.,1.,0.));
#338=DIRECTION('ref_axis',(-1.22464679914735E-16,0.,1.));
#339=DIRECTION('center_axis',(0.,1.,0.));
#340=DIRECTION('ref_axis',(-1.22464679914735E-16,0.,1.));
#341=DIRECTION('center_axis',(-1.,0.,1.22464679914735E-16));
#342=DIRECTION('ref_axis',(-1.22464679914735E-16,0.,-1.));
#343=DIRECTION('center_axis',(0.,-1.,0.));
#344=DIRECTION('ref_axis',(-1.22464679914735E-16,0.,1.));
#345=DIRECTION('center_axis',(0.,-1.,0.));
#346=DIRECTION('ref_axis',(0.,0.,-1.));
#347=DIRECTION('',(0.,1.,0.));
#348=DIRECTION('center_axis',(0.,-1.,0.));
#349=DIRECTION('ref_axis',(1.,0.,0.));
#350=DIRECTION('center_axis',(0.,1.,0.));
#351=DIRECTION('ref_axis',(0.,0.,1.));
#352=DIRECTION('center_axis',(0.,1.,0.));
#353=DIRECTION('ref_axis',(0.,0.,1.));
#354=DIRECTION('center_axis',(0.,-1.,0.));
#355=DIRECTION('ref_axis',(0.,0.,-1.));
#356=DIRECTION('center_axis',(-1.,0.,1.22464679914735E-16));
#357=DIRECTION('ref_axis',(-1.22464679914735E-16,0.,-1.));
#358=DIRECTION('center_axis',(0.,1.,0.));
#359=DIRECTION('ref_axis',(0.,0.,-1.));
#360=DIRECTION('center_axis',(0.,-1.,0.));
#361=DIRECTION('ref_axis',(0.,0.,-1.));
#362=DIRECTION('center_axis',(0.,-1.,0.));
#363=DIRECTION('ref_axis',(0.,0.,-1.));
#364=DIRECTION('center_axis',(0.,-1.,0.));
#365=DIRECTION('ref_axis',(1.,0.,0.));
#366=DIRECTION('',(0.,-1.,0.));
#367=DIRECTION('center_axis',(0.,1.,0.));
#368=DIRECTION('ref_axis',(0.,0.,1.));
#369=DIRECTION('center_axis',(0.,1.,0.));
#370=DIRECTION('ref_axis',(0.,0.,1.));
#371=DIRECTION('center_axis',(0.,1.,0.));
#372=DIRECTION('ref_axis',(-1.,0.,0.));
#373=DIRECTION('center_axis',(-1.,0.,1.22464679914735E-16));
#374=DIRECTION('ref_axis',(-1.22464679914735E-16,0.,-1.));
#375=DIRECTION('center_axis',(0.,-1.,0.));
#376=DIRECTION('ref_axis',(-1.,0.,0.));
#377=DIRECTION('center_axis',(0.,1.,0.));
#378=DIRECTION('ref_axis',(-1.,0.,0.));
#379=DIRECTION('center_axis',(0.,1.,0.));
#380=DIRECTION('ref_axis',(0.,0.,1.));
#381=DIRECTION('center_axis',(0.,1.,0.));
#382=DIRECTION('ref_axis',(-1.,0.,1.22464679914735E-16));
#383=DIRECTION('center_axis',(0.,1.,0.));
#384=DIRECTION('ref_axis',(-1.,0.,0.));
#385=DIRECTION('',(0.,1.,0.));
#386=DIRECTION('center_axis',(0.,-1.,0.));
#387=DIRECTION('ref_axis',(1.,0.,0.));
#388=DIRECTION('center_axis',(0.,-1.,0.));
#389=DIRECTION('ref_axis',(1.,0.,0.));
#390=DIRECTION('center_axis',(0.,1.,0.));
#391=DIRECTION('ref_axis',(0.,0.,1.));
#392=DIRECTION('center_axis',(0.,-1.,0.));
#393=DIRECTION('ref_axis',(1.,0.,1.22464679914735E-16));
#394=DIRECTION('center_axis',(-1.,0.,1.22464679914735E-16));
#395=DIRECTION('ref_axis',(-1.22464679914735E-16,0.,-1.));
#396=DIRECTION('center_axis',(0.,1.,0.));
#397=DIRECTION('ref_axis',(1.,0.,1.22464679914735E-16));
#398=DIRECTION('center_axis',(0.,-1.,0.));
#399=DIRECTION('ref_axis',(1.,0.,1.22464679914735E-16));
#400=DIRECTION('center_axis',(0.,1.,0.));
#401=DIRECTION('ref_axis',(0.,0.,1.));
#402=DIRECTION('center_axis',(0.,-1.,0.));
#403=DIRECTION('ref_axis',(-1.,0.,-1.22464679914735E-16));
#404=DIRECTION('center_axis',(0.,1.,0.));
#405=DIRECTION('ref_axis',(-1.,0.,0.));
#406=DIRECTION('center_axis',(0.,-1.,0.));
#407=DIRECTION('ref_axis',(1.,0.,0.));
#408=DIRECTION('',(0.,-1.,0.));
#409=DIRECTION('center_axis',(0.,-1.,0.));
#410=DIRECTION('ref_axis',(1.,0.,0.));
#411=DIRECTION('center_axis',(0.,-1.,0.));
#412=DIRECTION('ref_axis',(0.,0.,-1.));
#413=DIRECTION('center_axis',(-1.,0.,-1.22464679914735E-16));
#414=DIRECTION('ref_axis',(-1.22464679914735E-16,0.,1.));
#415=DIRECTION('center_axis',(0.,-1.,0.));
#416=DIRECTION('ref_axis',(-1.,0.,1.22464679914735E-16));
#417=DIRECTION('center_axis',(0.,-1.,0.));
#418=DIRECTION('ref_axis',(-1.,0.,1.22464679914735E-16));
#419=DIRECTION('center_axis',(0.,1.,0.));
#420=DIRECTION('ref_axis',(1.,0.,0.));
#421=DIRECTION('center_axis',(0.,1.,0.));
#422=DIRECTION('ref_axis',(-1.,0.,-1.22464679914735E-16));
#423=DIRECTION('',(0.,1.,0.));
#424=DIRECTION('center_axis',(0.,1.,0.));
#425=DIRECTION('ref_axis',(-1.,0.,-1.22464679914735E-16));
#426=DIRECTION('center_axis',(0.,1.,0.));
#427=DIRECTION('ref_axis',(0.,0.,1.));
#428=DIRECTION('center_axis',(-1.,0.,1.22464679914735E-16));
#429=DIRECTION('ref_axis',(-1.22464679914735E-16,0.,-1.));
#430=DIRECTION('center_axis',(0.,-1.,0.));
#431=DIRECTION('ref_axis',(0.,0.,-1.));
#432=DIRECTION('center_axis',(1.,0.,1.22464679914735E-16));
#433=DIRECTION('ref_axis',(-1.22464679914735E-16,0.,1.));
#434=DIRECTION('center_axis',(0.,-1.,0.));
#435=DIRECTION('ref_axis',(0.,0.,-1.));
#436=DIRECTION('center_axis',(-1.,0.,-1.22464679914735E-16));
#437=DIRECTION('ref_axis',(-1.22464679914735E-16,0.,1.));
#438=CARTESIAN_POINT('',(0.,0.,0.));
#439=CARTESIAN_POINT('Origin',(0.,18.05,0.));
#440=CARTESIAN_POINT('',(0.,18.05,-11.25));
#441=CARTESIAN_POINT('',(-1.37772764904077E-15,18.05,11.25));
#442=CARTESIAN_POINT('Origin',(0.,18.05,0.));
#443=CARTESIAN_POINT('Origin',(0.,18.05,0.));
#444=CARTESIAN_POINT('',(2.74320883009007E-15,18.,-11.2));
#445=CARTESIAN_POINT('Origin',(-1.37160441504504E-15,18.05,-11.2));
#446=CARTESIAN_POINT('Origin',(0.,18.,0.));
#447=CARTESIAN_POINT('Origin',(0.,18.375,0.));
#448=CARTESIAN_POINT('',(-1.37772764904077E-15,18.75,11.25));
#449=CARTESIAN_POINT('',(-1.37772764904077E-15,18.375,11.25));
#450=CARTESIAN_POINT('Origin',(0.,18.75,0.));
#451=CARTESIAN_POINT('Origin',(0.,18.,0.));
#452=CARTESIAN_POINT('Origin',(0.,17.05,0.));
#453=CARTESIAN_POINT('',(-1.50019232895551E-15,17.05,12.25));
#454=CARTESIAN_POINT('',(-1.50019232895551E-15,17.05,-12.25));
#455=CARTESIAN_POINT('Origin',(0.,17.05,0.));
#456=CARTESIAN_POINT('',(-1.49406909495977E-15,17.,-12.2));
#457=CARTESIAN_POINT('Origin',(-1.49406909495977E-15,17.05,-12.2));
#458=CARTESIAN_POINT('Origin',(0.,17.,0.));
#459=CARTESIAN_POINT('Origin',(0.,17.05,0.));
#460=CARTESIAN_POINT('Origin',(0.,18.375,0.));
#461=CARTESIAN_POINT('',(-1.50019232895551E-15,18.75,12.25));
#462=CARTESIAN_POINT('Origin',(0.,18.75,0.));
#463=CARTESIAN_POINT('',(-1.50019232895551E-15,18.375,12.25));
#464=CARTESIAN_POINT('Origin',(0.,17.,0.));
#465=CARTESIAN_POINT('Origin',(0.,1.05,0.));
#466=CARTESIAN_POINT('',(13.75,1.05,-1.68388934882761E-15));
#467=CARTESIAN_POINT('',(-1.68388934882761E-15,1.05,-13.75));
#468=CARTESIAN_POINT('Origin',(0.,1.05,0.));
#469=CARTESIAN_POINT('',(-1.67776611483187E-15,1.,-13.7));
#470=CARTESIAN_POINT('Origin',(-1.67776611483187E-15,1.05,-13.7));
#471=CARTESIAN_POINT('Origin',(0.,1.,0.));
#472=CARTESIAN_POINT('Origin',(0.,1.05,0.));
#473=CARTESIAN_POINT('Origin',(0.,1.,0.));
#474=CARTESIAN_POINT('',(-1.38385088303651E-15,1.,11.3));
#475=CARTESIAN_POINT('Origin',(0.,1.,0.));
#476=CARTESIAN_POINT('Origin',(0.,0.,0.));
#477=CARTESIAN_POINT('',(13.75,18.75,-1.68388934882761E-15));
#478=CARTESIAN_POINT('',(13.75,0.,-1.68388934882761E-15));
#479=CARTESIAN_POINT('',(-1.68388934882761E-15,18.75,13.75));
#480=CARTESIAN_POINT('Origin',(0.,18.75,0.));
#481=CARTESIAN_POINT('Origin',(0.,18.75,0.));
#482=CARTESIAN_POINT('Origin',(0.,0.05,0.));
#483=CARTESIAN_POINT('',(14.75,0.05,-1.80635402874235E-15));
#484=CARTESIAN_POINT('',(-1.80635402874235E-15,0.05,-14.75));
#485=CARTESIAN_POINT('Origin',(0.,0.05,0.));
#486=CARTESIAN_POINT('',(-1.80023079474661E-15,0.,-14.7));
#487=CARTESIAN_POINT('Origin',(-1.80023079474661E-15,0.05,-14.7));
#488=CARTESIAN_POINT('Origin',(0.,0.,0.));
#489=CARTESIAN_POINT('Origin',(0.,0.05,0.));
#490=CARTESIAN_POINT('Origin',(0.,0.,0.));
#491=CARTESIAN_POINT('',(-1.38385088303651E-15,0.,-11.3));
#492=CARTESIAN_POINT('Origin',(0.,0.,0.));
#493=CARTESIAN_POINT('Origin',(0.,0.,0.));
#494=CARTESIAN_POINT('',(-1.80635402874235E-15,18.75,14.75));
#495=CARTESIAN_POINT('',(14.75,18.75,-1.80635402874235E-15));
#496=CARTESIAN_POINT('Origin',(0.,18.75,0.));
#497=CARTESIAN_POINT('',(14.75,0.,-1.80635402874235E-15));
#498=CARTESIAN_POINT('Origin',(0.,18.75,0.));
#499=CARTESIAN_POINT('Origin',(0.,0.95,0.));
#500=CARTESIAN_POINT('',(-1.37772764904077E-15,0.95,11.25));
#501=CARTESIAN_POINT('Origin',(-1.38385088303651E-15,0.95,11.3));
#502=CARTESIAN_POINT('',(-11.25,0.95,1.37772764904077E-15));
#503=CARTESIAN_POINT('Origin',(0.,0.95,0.));
#504=CARTESIAN_POINT('Origin',(0.,0.95,0.));
#505=CARTESIAN_POINT('Origin',(0.,0.,0.));
#506=CARTESIAN_POINT('',(-11.25,0.05,1.37772764904077E-15));
#507=CARTESIAN_POINT('',(-1.37772764904077E-15,0.05,-11.25));
#508=CARTESIAN_POINT('Origin',(0.,0.05,0.));
#509=CARTESIAN_POINT('',(-11.25,0.,1.37772764904077E-15));
#510=CARTESIAN_POINT('Origin',(0.,0.05,0.));
#511=CARTESIAN_POINT('Origin',(0.,0.05,0.));
#512=CARTESIAN_POINT('Origin',(-1.38385088303651E-15,0.05,-11.3));
#513=CARTESIAN_POINT('Origin',(0.,18.75,0.));
#514=CARTESIAN_POINT('Origin',(-1.59204083889156E-15,18.75,13.));
#515=CARTESIAN_POINT('Origin',(0.,18.75,0.));
#516=CARTESIAN_POINT('Origin',(-1.59204083889156E-15,18.75,13.));
#517=UNCERTAINTY_MEASURE_WITH_UNIT(LENGTH_MEASURE(0.01),#521,
'DISTANCE_ACCURACY_VALUE',
'Maximum model space distance between geometric entities at asserted c
onnectivities');
#518=UNCERTAINTY_MEASURE_WITH_UNIT(LENGTH_MEASURE(0.01),#521,
'DISTANCE_ACCURACY_VALUE',
'Maximum model space distance between geometric entities at asserted c
onnectivities');
#519=(
GEOMETRIC_REPRESENTATION_CONTEXT(3)
GLOBAL_UNCERTAINTY_ASSIGNED_CONTEXT((#517))
GLOBAL_UNIT_ASSIGNED_CONTEXT((#521,#523,#524))
REPRESENTATION_CONTEXT('','3D')
);
#520=(
GEOMETRIC_REPRESENTATION_CONTEXT(3)
GLOBAL_UNCERTAINTY_ASSIGNED_CONTEXT((#518))
GLOBAL_UNIT_ASSIGNED_CONTEXT((#521,#523,#524))
REPRESENTATION_CONTEXT('','3D')
);
#521=(
LENGTH_UNIT()
NAMED_UNIT(*)
SI_UNIT(.MILLI.,.METRE.)
);
#522=(
LENGTH_UNIT()
NAMED_UNIT(*)
SI_UNIT(.CENTI.,.METRE.)
);
#523=(
NAMED_UNIT(*)
PLANE_ANGLE_UNIT()
SI_UNIT($,.RADIAN.)
);
#524=(
NAMED_UNIT(*)
SI_UNIT($,.STERADIAN.)
SOLID_ANGLE_UNIT()
);
#525=SHAPE_DEFINITION_REPRESENTATION(#526,#527);
#526=PRODUCT_DEFINITION_SHAPE('',$,#529);
#527=SHAPE_REPRESENTATION('',(#283),#519);
#528=PRODUCT_DEFINITION_CONTEXT('part definition',#533,'design');
#529=PRODUCT_DEFINITION('SB-22.SCA','SB-22.SCA',#530,#528);
#530=PRODUCT_DEFINITION_FORMATION('',$,#535);
#531=PRODUCT_RELATED_PRODUCT_CATEGORY('SB-22.SCA','SB-22.SCA',(#535));
#532=APPLICATION_PROTOCOL_DEFINITION('international standard',
'automotive_design',2009,#533);
#533=APPLICATION_CONTEXT(
'Core Data for Automotive Mechanical Design Process');
#534=PRODUCT_CONTEXT('part definition',#533,'mechanical');
#535=PRODUCT('SB-22.SCA','SB-22.SCA',$,(#534));
#536=PRESENTATION_STYLE_ASSIGNMENT((#537));
#537=SURFACE_STYLE_USAGE(.BOTH.,#540);
#538=SURFACE_STYLE_RENDERING_WITH_PROPERTIES($,#544,(#539));
#539=SURFACE_STYLE_TRANSPARENT(0.509999990463257);
#540=SURFACE_SIDE_STYLE('',(#541,#538));
#541=SURFACE_STYLE_FILL_AREA(#542);
#542=FILL_AREA_STYLE('',(#543));
#543=FILL_AREA_STYLE_COLOUR('',#544);
#544=COLOUR_RGB('',0.898039215686275,0.898039215686275,0.898039215686275);
ENDSEC;
END-ISO-10303-21;
